  0
SECTION
  2
HEADER
  9
$ACADVER
  1
AC1009
  9
$INSBASE
 10
0.0
 20
0.0
 30
0.0
  9
$EXTMIN
 10
-569.1064809100701
 20
-403.74120734908132
 30
0.0
  9
$EXTMAX
 10
351.41215371015664
 20
579.05879265091869
 30
0.0
  9
$LIMMIN
 10
-597.87268824195223
 20
-434.4537073490813
  9
$LIMMAX
 10
380.17836104203872
 20
609.77129265091867
  9
$ORTHOMODE
 70
               0
  9
$REGENMODE
 70
               1
  9
$FILLMODE
 70
               1
  9
$QTEXTMODE
 70
               0
  9
$MIRRTEXT
 70
               1
  9
$DRAGMODE
 70
               2
  9
$LTSCALE
 40
1.0
  9
$OSMODE
 70
               0
  9
$ATTMODE
 70
               1
  9
$TEXTSIZE
 40
0.2
  9
$TRACEWID
 40
0.05
  9
$TEXTSTYLE
  7
STANDARD
  9
$CLAYER
  8
0
  9
$CELTYPE
  6
CONTINUOUS
  9
$CECOLOR
 62
             256
  9
$DIMSCALE
 40
1.0
  9
$DIMASZ
 40
0.18
  9
$DIMEXO
 40
0.0625
  9
$DIMDLI
 40
0.38
  9
$DIMRND
 40
0.0
  9
$DIMDLE
 40
0.0
  9
$DIMEXE
 40
0.18
  9
$DIMTP
 40
0.0
  9
$DIMTM
 40
0.0
  9
$DIMTXT
 40
0.18
  9
$DIMCEN
 40
0.09
  9
$DIMTSZ
 40
0.0
  9
$DIMTOL
 70
               0
  9
$DIMLIM
 70
               0
  9
$DIMTIH
 70
               1
  9
$DIMTOH
 70
               1
  9
$DIMSE1
 70
               0
  9
$DIMSE2
 70
               0
  9
$DIMTAD
 70
               0
  9
$DIMZIN
 70
               0
  9
$DIMBLK
  1

  9
$DIMASO
 70
               1
  9
$DIMSHO
 70
               1
  9
$DIMPOST
  1

  9
$DIMAPOST
  1

  9
$DIMALT
 70
               0
  9
$DIMALTD
 70
               2
  9
$DIMALTF
 40
25.399999999999999
  9
$DIMLFAC
 40
1.0
  9
$DIMTOFL
 70
               0
  9
$DIMTVP
 40
0.0
  9
$DIMTIX
 70
               0
  9
$DIMSOXD
 70
               0
  9
$DIMSAH
 70
               0
  9
$DIMBLK1
  1

  9
$DIMBLK2
  1

  9
$DIMSTYLE
  2
STANDARD
  9
$DIMCLRD
 70
               0
  9
$DIMCLRE
 70
               0
  9
$DIMCLRT
 70
               0
  9
$DIMTFAC
 40
1.0
  9
$DIMGAP
 40
0.09
  9
$LUNITS
 70
               2
  9
$LUPREC
 70
               4
  9
$AXISMODE
 70
               0
  9
$AXISUNIT
 10
0.0
 20
0.0
  9
$SKETCHINC
 40
0.1
  9
$FILLETRAD
 40
0.0
  9
$AUNITS
 70
               0
  9
$AUPREC
 70
               0
  9
$MENU
  1
acad
  9
$ELEVATION
 40
0.0
  9
$PELEVATION
 40
0.0
  9
$THICKNESS
 40
0.0
  9
$LIMCHECK
 70
               0
  9
$BLIPMODE
 70
               1
  9
$CHAMFERA
 40
0.0
  9
$CHAMFERB
 40
0.0
  9
$SKPOLY
 70
               0
  9
$TDCREATE
 40
0.000000000
  9
$TDUPDATE
 40
0.000000000
  9
$TDINDWG
 40
0.0000000000
  9
$TDUSRTIMER
 40
0.0000000000
  9
$USRTIMER
 70
               1
  9
$ANGBASE
 50
0.0
  9
$ANGDIR
 70
               0
  9
$PDMODE
 70
               0
  9
$PDSIZE
 40
1.0
  9
$PLINEWID
 40
0.0
  9
$COORDS
 70
               1
  9
$SPLFRAME
 70
               0
  9
$SPLINETYPE
 70
               6
  9
$SPLINESEGS
 70
               8
  9
$ATTDIA
 70
               0
  9
$ATTREQ
 70
               1
  9
$HANDLING
 70
               1
  9
$HANDSEED
  5
1BC
  9
$SURFTAB1
 70
               6
  9
$SURFTAB2
 70
               6
  9
$SURFTYPE
 70
               6
  9
$SURFU
 70
               6
  9
$SURFV
 70
               6
  9
$UCSNAME
  2

  9
$UCSORG
 10
0.0
 20
0.0
 30
0.0
  9
$UCSXDIR
 10
1.0
 20
0.0
 30
0.0
  9
$UCSYDIR
 10
0.0
 20
1.0
 30
0.0
  9
$PUCSNAME
  2

  9
$PUCSORG
 10
0.0
 20
0.0
 30
0.0
  9
$PUCSXDIR
 10
1.0
 20
0.0
 30
0.0
  9
$PUCSYDIR
 10
0.0
 20
1.0
 30
0.0
  9
$USERI1
 70
               0
  9
$USERI2
 70
               0
  9
$USERI3
 70
               0
  9
$USERI4
 70
               0
  9
$USERI5
 70
               0
  9
$USERR1
 40
0.0
  9
$USERR2
 40
0.0
  9
$USERR3
 40
0.0
  9
$USERR4
 40
0.0
  9
$USERR5
 40
0.0
  9
$WORLDVIEW
 70
               1
  9
$SHADEDGE
 70
               3
  9
$SHADEDIF
 70
              70
  9
$TILEMODE
 70
               1
  9
$MAXACTVP
 70
              16
  9
$PINSBASE
 10
0.0
 20
0.0
 30
0.0
  9
$PLIMCHECK
 70
               0
  9
$PEXTMIN
 10
1.0000000000000000E+20
 20
1.0000000000000000E+20
 30
1.0000000000000000E+20
  9
$PEXTMAX
 10
-1.0000000000000000E+20
 20
-1.0000000000000000E+20
 30
-1.0000000000000000E+20
  9
$PLIMMIN
 10
0.0
 20
0.0
  9
$PLIMMAX
 10
12.0
 20
9.0
  9
$UNITMODE
 70
               0
  9
$VISRETAIN
 70
               0
  9
$PLINEGEN
 70
               1
  9
$PSLTSCALE
 70
               0
  9
$TREEDEPTH
 70
            3020
  9
$DWGCODEPAGE
  3
dos932
  0
ENDSEC
  0
SECTION
  2
TABLES
  0
TABLE
  2
VPORT
 70
               1
  0
VPORT
  2
*ACTIVE
 70
               0
 10
0.0
 20
0.0
 11
1.0
 21
1.0
 12
-108.84716359995676
 22
87.658792650918684
 13
0.0
 23
0.0
 14
1.0
 24
1.0
 15
0.0
 25
0.0
 16
0.0
 26
0.0
 36
1.0
 17
0.0
 27
0.0
 37
0.0
 40
1044.2249999999999
 41
0.9366286473547283
 42
50.0
 43
0.0
 44
0.0
 50
0.0
 51
0.0
 71
               0
 72
             100
 73
               1
 74
               1
 75
               0
 76
               0
 77
               0
 78
               0
  0
ENDTAB
  0
TABLE
  2
LTYPE
 70
              26
  0
LTYPE
  2
CONTINUOUS
 70
               0
  3
Solid line
 72
              65
 73
               0
 40
0.0
  0
LTYPE
  2
HIDDENX2
 70
               0
  3
CADPAC FUSION LINETYPE
 72
              65
 73
               2
 40
80.0
 49
60.0
 49
-20.0
  0
LTYPE
  2
HIDDEN
 70
               0
  3
CADPAC FUSION LINETYPE
 72
              65
 73
               2
 40
60.0
 49
40.0
 49
-20.0
  0
LTYPE
  2
HIDDEN2
 70
               0
  3
CADPAC FUSION LINETYPE
 72
              65
 73
               2
 40
50.0
 49
30.0
 49
-20.0
  0
LTYPE
  2
DASHED
 70
               0
  3
CADPAC FUSION LINETYPE
 72
              65
 73
               2
 40
60.0
 49
40.0
 49
-20.0
  0
LTYPE
  2
DASHED2
 70
               0
  3
CADPAC FUSION LINETYPE
 72
              65
 73
               2
 40
45.0
 49
30.0
 49
-15.0
  0
LTYPE
  2
DASHEDX2
 70
               0
  3
CADPAC FUSION LINETYPE
 72
              65
 73
               2
 40
90.0
 49
60.0
 49
-30.0
  0
LTYPE
  2
DOTX2
 70
               0
  3
CADPAC FUSION LINETYPE
 72
              65
 73
               2
 40
25.0
 49
0.0
 49
-25.0
  0
LTYPE
  2
DOT
 70
               0
  3
CADPAC FUSION LINETYPE
 72
              65
 73
               2
 40
20.0
 49
0.0
 49
-20.0
  0
LTYPE
  2
DOTS
 70
               0
  3
CADPAC FUSION LINETYPE
 72
              65
 73
               2
 40
20.0
 49
0.0
 49
-20.0
  0
LTYPE
  2
DOT2
 70
               0
  3
CADPAC FUSION LINETYPE
 72
              65
 73
               2
 40
15.0
 49
0.0
 49
-15.0
  0
LTYPE
  2
CENTERX2
 70
               0
  3
CADPAC FUSION LINETYPE
 72
              65
 73
               4
 40
120.0
 49
50.0
 49
-25.0
 49
20.0
 49
-25.0
  0
LTYPE
  2
CENTER
 70
               0
  3
CADPAC FUSION LINETYPE
 72
              65
 73
               4
 40
92.0
 49
40.0
 49
-20.0
 49
12.0
 49
-20.0
  0
LTYPE
  2
CENTER2
 70
               0
  3
CADPAC FUSION LINETYPE
 72
              65
 73
               4
 40
64.0
 49
30.0
 49
-15.0
 49
4.0
 49
-15.0
  0
LTYPE
  2
DASHDOTX2
 70
               0
  3
CADPAC FUSION LINETYPE
 72
              65
 73
               4
 40
100.0
 49
50.0
 49
-25.0
 49
0.0
 49
-25.0
  0
LTYPE
  2
DASHDOT
 70
               0
  3
CADPAC FUSION LINETYPE
 72
              65
 73
               4
 40
80.0
 49
40.0
 49
-20.0
 49
0.0
 49
-20.0
  0
LTYPE
  2
DASHDOT2
 70
               0
  3
CADPAC FUSION LINETYPE
 72
              65
 73
               4
 40
60.0
 49
30.0
 49
-15.0
 49
0.0
 49
-15.0
  0
LTYPE
  2
DIVIDEX2
 70
               0
  3
CADPAC FUSION LINETYPE
 72
              65
 73
               6
 40
125.0
 49
50.0
 49
-25.0
 49
0.0
 49
-25.0
 49
0.0
 49
-25.0
  0
LTYPE
  2
DIVIDE
 70
               0
  3
CADPAC FUSION LINETYPE
 72
              65
 73
               6
 40
100.0
 49
40.0
 49
-20.0
 49
0.0
 49
-20.0
 49
0.0
 49
-20.0
  0
LTYPE
  2
DIVIDE2
 70
               0
  3
CADPAC FUSION LINETYPE
 72
              65
 73
               6
 40
75.0
 49
30.0
 49
-15.0
 49
0.0
 49
-15.0
 49
0.0
 49
-15.0
  0
LTYPE
  2
BORDERX2
 70
               0
  3
CADPAC FUSION LINETYPE
 72
              65
 73
               6
 40
175.0
 49
50.0
 49
-25.0
 49
50.0
 49
-25.0
 49
0.0
 49
-25.0
  0
LTYPE
  2
BORDER
 70
               0
  3
CADPAC FUSION LINETYPE
 72
              65
 73
               6
 40
140.0
 49
40.0
 49
-20.0
 49
40.0
 49
-20.0
 49
0.0
 49
-20.0
  0
LTYPE
  2
BORDER2
 70
               0
  3
CADPAC FUSION LINETYPE
 72
              65
 73
               6
 40
105.0
 49
30.0
 49
-15.0
 49
30.0
 49
-15.0
 49
0.0
 49
-15.0
  0
LTYPE
  2
PHANTOMX2
 70
               0
  3
CADPAC FUSION LINETYPE
 72
              65
 73
               6
 40
150.0
 49
50.0
 49
-20.0
 49
20.0
 49
-20.0
 49
20.0
 49
-20.0
  0
LTYPE
  2
PHANTOM
 70
               0
  3
CADPAC FUSION LINETYPE
 72
              65
 73
               6
 40
124.0
 49
40.0
 49
-20.0
 49
12.0
 49
-20.0
 49
12.0
 49
-20.0
  0
LTYPE
  2
PHANTOM2
 70
               0
  3
CADPAC FUSION LINETYPE
 72
              65
 73
               6
 40
106.0
 49
30.0
 49
-20.0
 49
8.0
 49
-20.0
 49
8.0
 49
-20.0
  0
ENDTAB
  0
TABLE
  2
LAYER
 70
             256
  0
LAYER
  2
0
 70
               0
 62
               7
  6
CONTINUOUS
  0
LAYER
  2
LAYER001
 70
               0
 62
               7
  6
CONTINUOUS
  0
LAYER
  2
LAYER002
 70
               0
 62
               7
  6
CONTINUOUS
  0
LAYER
  2
LAYER003
 70
               0
 62
               7
  6
CONTINUOUS
  0
LAYER
  2
LAYER004
 70
               0
 62
               7
  6
CONTINUOUS
  0
LAYER
  2
LAYER005
 70
               0
 62
               7
  6
CONTINUOUS
  0
LAYER
  2
LAYER006
 70
               0
 62
               7
  6
CONTINUOUS
  0
LAYER
  2
LAYER007
 70
               0
 62
               7
  6
CONTINUOUS
  0
LAYER
  2
LAYER008
 70
               0
 62
               7
  6
CONTINUOUS
  0
LAYER
  2
LAYER009
 70
               0
 62
               7
  6
CONTINUOUS
  0
LAYER
  2
LAYER010
 70
               0
 62
               7
  6
CONTINUOUS
  0
LAYER
  2
LAYER011
 70
               0
 62
               7
  6
CONTINUOUS
  0
LAYER
  2
LAYER012
 70
               0
 62
               7
  6
CONTINUOUS
  0
LAYER
  2
LAYER013
 70
               0
 62
               7
  6
CONTINUOUS
  0
LAYER
  2
LAYER014
 70
               0
 62
               7
  6
CONTINUOUS
  0
LAYER
  2
LAYER015
 70
               0
 62
               7
  6
CONTINUOUS
  0
LAYER
  2
LAYER016
 70
               0
 62
               7
  6
CONTINUOUS
  0
LAYER
  2
LAYER017
 70
               0
 62
               7
  6
CONTINUOUS
  0
LAYER
  2
LAYER018
 70
               0
 62
               7
  6
CONTINUOUS
  0
LAYER
  2
LAYER019
 70
               0
 62
               7
  6
CONTINUOUS
  0
LAYER
  2
LAYER020
 70
               0
 62
               7
  6
CONTINUOUS
  0
LAYER
  2
LAYER021
 70
               0
 62
               7
  6
CONTINUOUS
  0
LAYER
  2
LAYER022
 70
               0
 62
               7
  6
CONTINUOUS
  0
LAYER
  2
LAYER023
 70
               0
 62
               7
  6
CONTINUOUS
  0
LAYER
  2
LAYER024
 70
               0
 62
               7
  6
CONTINUOUS
  0
LAYER
  2
LAYER025
 70
               0
 62
               7
  6
CONTINUOUS
  0
LAYER
  2
LAYER026
 70
               0
 62
               7
  6
CONTINUOUS
  0
LAYER
  2
LAYER027
 70
               0
 62
               7
  6
CONTINUOUS
  0
LAYER
  2
LAYER028
 70
               0
 62
               7
  6
CONTINUOUS
  0
LAYER
  2
LAYER029
 70
               0
 62
               7
  6
CONTINUOUS
  0
LAYER
  2
LAYER030
 70
               0
 62
               7
  6
CONTINUOUS
  0
LAYER
  2
LAYER031
 70
               0
 62
               7
  6
CONTINUOUS
  0
LAYER
  2
LAYER032
 70
               0
 62
               7
  6
CONTINUOUS
  0
LAYER
  2
LAYER033
 70
               0
 62
               7
  6
CONTINUOUS
  0
LAYER
  2
LAYER034
 70
               0
 62
               7
  6
CONTINUOUS
  0
LAYER
  2
LAYER035
 70
               0
 62
               7
  6
CONTINUOUS
  0
LAYER
  2
LAYER036
 70
               0
 62
               7
  6
CONTINUOUS
  0
LAYER
  2
LAYER037
 70
               0
 62
               7
  6
CONTINUOUS
  0
LAYER
  2
LAYER038
 70
               0
 62
               7
  6
CONTINUOUS
  0
LAYER
  2
LAYER039
 70
               0
 62
               7
  6
CONTINUOUS
  0
LAYER
  2
LAYER040
 70
               0
 62
               7
  6
CONTINUOUS
  0
LAYER
  2
LAYER041
 70
               0
 62
               7
  6
CONTINUOUS
  0
LAYER
  2
LAYER042
 70
               0
 62
               7
  6
CONTINUOUS
  0
LAYER
  2
LAYER043
 70
               0
 62
               7
  6
CONTINUOUS
  0
LAYER
  2
LAYER044
 70
               0
 62
               7
  6
CONTINUOUS
  0
LAYER
  2
LAYER045
 70
               0
 62
               7
  6
CONTINUOUS
  0
LAYER
  2
LAYER046
 70
               0
 62
               7
  6
CONTINUOUS
  0
LAYER
  2
LAYER047
 70
               0
 62
               7
  6
CONTINUOUS
  0
LAYER
  2
LAYER048
 70
               0
 62
               7
  6
CONTINUOUS
  0
LAYER
  2
LAYER049
 70
               0
 62
               7
  6
CONTINUOUS
  0
LAYER
  2
LAYER050
 70
               0
 62
               7
  6
CONTINUOUS
  0
LAYER
  2
LAYER051
 70
               0
 62
               7
  6
CONTINUOUS
  0
LAYER
  2
LAYER052
 70
               0
 62
               7
  6
CONTINUOUS
  0
LAYER
  2
LAYER053
 70
               0
 62
               7
  6
CONTINUOUS
  0
LAYER
  2
LAYER054
 70
               0
 62
               7
  6
CONTINUOUS
  0
LAYER
  2
LAYER055
 70
               0
 62
               7
  6
CONTINUOUS
  0
LAYER
  2
LAYER056
 70
               0
 62
               7
  6
CONTINUOUS
  0
LAYER
  2
LAYER057
 70
               0
 62
               7
  6
CONTINUOUS
  0
LAYER
  2
LAYER058
 70
               0
 62
               7
  6
CONTINUOUS
  0
LAYER
  2
LAYER059
 70
               0
 62
               7
  6
CONTINUOUS
  0
LAYER
  2
LAYER060
 70
               0
 62
               7
  6
CONTINUOUS
  0
LAYER
  2
LAYER061
 70
               0
 62
               7
  6
CONTINUOUS
  0
LAYER
  2
LAYER062
 70
               0
 62
               7
  6
CONTINUOUS
  0
LAYER
  2
LAYER063
 70
               0
 62
               7
  6
CONTINUOUS
  0
LAYER
  2
LAYER064
 70
               0
 62
               7
  6
CONTINUOUS
  0
LAYER
  2
LAYER065
 70
               0
 62
               7
  6
CONTINUOUS
  0
LAYER
  2
LAYER066
 70
               0
 62
               7
  6
CONTINUOUS
  0
LAYER
  2
LAYER067
 70
               0
 62
               7
  6
CONTINUOUS
  0
LAYER
  2
LAYER068
 70
               0
 62
               7
  6
CONTINUOUS
  0
LAYER
  2
LAYER069
 70
               0
 62
               7
  6
CONTINUOUS
  0
LAYER
  2
LAYER070
 70
               0
 62
               7
  6
CONTINUOUS
  0
LAYER
  2
LAYER071
 70
               0
 62
               7
  6
CONTINUOUS
  0
LAYER
  2
LAYER072
 70
               0
 62
               7
  6
CONTINUOUS
  0
LAYER
  2
LAYER073
 70
               0
 62
               7
  6
CONTINUOUS
  0
LAYER
  2
LAYER074
 70
               0
 62
               7
  6
CONTINUOUS
  0
LAYER
  2
LAYER075
 70
               0
 62
               7
  6
CONTINUOUS
  0
LAYER
  2
LAYER076
 70
               0
 62
               7
  6
CONTINUOUS
  0
LAYER
  2
LAYER077
 70
               0
 62
               7
  6
CONTINUOUS
  0
LAYER
  2
LAYER078
 70
               0
 62
               7
  6
CONTINUOUS
  0
LAYER
  2
LAYER079
 70
               0
 62
               7
  6
CONTINUOUS
  0
LAYER
  2
LAYER080
 70
               0
 62
               7
  6
CONTINUOUS
  0
LAYER
  2
LAYER081
 70
               0
 62
               7
  6
CONTINUOUS
  0
LAYER
  2
LAYER082
 70
               0
 62
               7
  6
CONTINUOUS
  0
LAYER
  2
LAYER083
 70
               0
 62
               7
  6
CONTINUOUS
  0
LAYER
  2
LAYER084
 70
               0
 62
               7
  6
CONTINUOUS
  0
LAYER
  2
LAYER085
 70
               0
 62
               7
  6
CONTINUOUS
  0
LAYER
  2
LAYER086
 70
               0
 62
               7
  6
CONTINUOUS
  0
LAYER
  2
LAYER087
 70
               0
 62
               7
  6
CONTINUOUS
  0
LAYER
  2
LAYER088
 70
               0
 62
               7
  6
CONTINUOUS
  0
LAYER
  2
LAYER089
 70
               0
 62
               7
  6
CONTINUOUS
  0
LAYER
  2
LAYER090
 70
               0
 62
               7
  6
CONTINUOUS
  0
LAYER
  2
LAYER091
 70
               0
 62
               7
  6
CONTINUOUS
  0
LAYER
  2
LAYER092
 70
               0
 62
               7
  6
CONTINUOUS
  0
LAYER
  2
LAYER093
 70
               0
 62
               7
  6
CONTINUOUS
  0
LAYER
  2
LAYER094
 70
               0
 62
               7
  6
CONTINUOUS
  0
LAYER
  2
LAYER095
 70
               0
 62
               7
  6
CONTINUOUS
  0
LAYER
  2
LAYER096
 70
               0
 62
               7
  6
CONTINUOUS
  0
LAYER
  2
LAYER097
 70
               0
 62
               7
  6
CONTINUOUS
  0
LAYER
  2
LAYER098
 70
               0
 62
               7
  6
CONTINUOUS
  0
LAYER
  2
LAYER099
 70
               0
 62
               7
  6
CONTINUOUS
  0
LAYER
  2
LAYER100
 70
               0
 62
               7
  6
CONTINUOUS
  0
LAYER
  2
LAYER101
 70
               0
 62
               7
  6
CONTINUOUS
  0
LAYER
  2
LAYER102
 70
               0
 62
               7
  6
CONTINUOUS
  0
LAYER
  2
LAYER103
 70
               0
 62
               7
  6
CONTINUOUS
  0
LAYER
  2
LAYER104
 70
               0
 62
               7
  6
CONTINUOUS
  0
LAYER
  2
LAYER105
 70
               0
 62
               7
  6
CONTINUOUS
  0
LAYER
  2
LAYER106
 70
               0
 62
               7
  6
CONTINUOUS
  0
LAYER
  2
LAYER107
 70
               0
 62
               7
  6
CONTINUOUS
  0
LAYER
  2
LAYER108
 70
               0
 62
               7
  6
CONTINUOUS
  0
LAYER
  2
LAYER109
 70
               0
 62
               7
  6
CONTINUOUS
  0
LAYER
  2
LAYER110
 70
               0
 62
               7
  6
CONTINUOUS
  0
LAYER
  2
LAYER111
 70
               0
 62
               7
  6
CONTINUOUS
  0
LAYER
  2
LAYER112
 70
               0
 62
               7
  6
CONTINUOUS
  0
LAYER
  2
LAYER113
 70
               0
 62
               7
  6
CONTINUOUS
  0
LAYER
  2
LAYER114
 70
               0
 62
               7
  6
CONTINUOUS
  0
LAYER
  2
LAYER115
 70
               0
 62
               7
  6
CONTINUOUS
  0
LAYER
  2
LAYER116
 70
               0
 62
               7
  6
CONTINUOUS
  0
LAYER
  2
LAYER117
 70
               0
 62
               7
  6
CONTINUOUS
  0
LAYER
  2
LAYER118
 70
               0
 62
               7
  6
CONTINUOUS
  0
LAYER
  2
LAYER119
 70
               0
 62
               7
  6
CONTINUOUS
  0
LAYER
  2
LAYER120
 70
               0
 62
               7
  6
CONTINUOUS
  0
LAYER
  2
LAYER121
 70
               0
 62
               7
  6
CONTINUOUS
  0
LAYER
  2
LAYER122
 70
               0
 62
               7
  6
CONTINUOUS
  0
LAYER
  2
LAYER123
 70
               0
 62
               7
  6
CONTINUOUS
  0
LAYER
  2
LAYER124
 70
               0
 62
               7
  6
CONTINUOUS
  0
LAYER
  2
LAYER125
 70
               0
 62
               7
  6
CONTINUOUS
  0
LAYER
  2
LAYER126
 70
               0
 62
               7
  6
CONTINUOUS
  0
LAYER
  2
LAYER127
 70
               0
 62
               7
  6
CONTINUOUS
  0
LAYER
  2
LAYER128
 70
               0
 62
               7
  6
CONTINUOUS
  0
LAYER
  2
LAYER129
 70
               0
 62
               7
  6
CONTINUOUS
  0
LAYER
  2
LAYER130
 70
               0
 62
               7
  6
CONTINUOUS
  0
LAYER
  2
LAYER131
 70
               0
 62
               7
  6
CONTINUOUS
  0
LAYER
  2
LAYER132
 70
               0
 62
               7
  6
CONTINUOUS
  0
LAYER
  2
LAYER133
 70
               0
 62
               7
  6
CONTINUOUS
  0
LAYER
  2
LAYER134
 70
               0
 62
               7
  6
CONTINUOUS
  0
LAYER
  2
LAYER135
 70
               0
 62
               7
  6
CONTINUOUS
  0
LAYER
  2
LAYER136
 70
               0
 62
               7
  6
CONTINUOUS
  0
LAYER
  2
LAYER137
 70
               0
 62
               7
  6
CONTINUOUS
  0
LAYER
  2
LAYER138
 70
               0
 62
               7
  6
CONTINUOUS
  0
LAYER
  2
LAYER139
 70
               0
 62
               7
  6
CONTINUOUS
  0
LAYER
  2
LAYER140
 70
               0
 62
               7
  6
CONTINUOUS
  0
LAYER
  2
LAYER141
 70
               0
 62
               7
  6
CONTINUOUS
  0
LAYER
  2
LAYER142
 70
               0
 62
               7
  6
CONTINUOUS
  0
LAYER
  2
LAYER143
 70
               0
 62
               7
  6
CONTINUOUS
  0
LAYER
  2
LAYER144
 70
               0
 62
               7
  6
CONTINUOUS
  0
LAYER
  2
LAYER145
 70
               0
 62
               7
  6
CONTINUOUS
  0
LAYER
  2
LAYER146
 70
               0
 62
               7
  6
CONTINUOUS
  0
LAYER
  2
LAYER147
 70
               0
 62
               7
  6
CONTINUOUS
  0
LAYER
  2
LAYER148
 70
               0
 62
               7
  6
CONTINUOUS
  0
LAYER
  2
LAYER149
 70
               0
 62
               7
  6
CONTINUOUS
  0
LAYER
  2
LAYER150
 70
               0
 62
               7
  6
CONTINUOUS
  0
LAYER
  2
LAYER151
 70
               0
 62
               7
  6
CONTINUOUS
  0
LAYER
  2
LAYER152
 70
               0
 62
               7
  6
CONTINUOUS
  0
LAYER
  2
LAYER153
 70
               0
 62
               7
  6
CONTINUOUS
  0
LAYER
  2
LAYER154
 70
               0
 62
               7
  6
CONTINUOUS
  0
LAYER
  2
LAYER155
 70
               0
 62
               7
  6
CONTINUOUS
  0
LAYER
  2
LAYER156
 70
               0
 62
               7
  6
CONTINUOUS
  0
LAYER
  2
LAYER157
 70
               0
 62
               7
  6
CONTINUOUS
  0
LAYER
  2
LAYER158
 70
               0
 62
               7
  6
CONTINUOUS
  0
LAYER
  2
LAYER159
 70
               0
 62
               7
  6
CONTINUOUS
  0
LAYER
  2
LAYER160
 70
               0
 62
               7
  6
CONTINUOUS
  0
LAYER
  2
LAYER161
 70
               0
 62
               7
  6
CONTINUOUS
  0
LAYER
  2
LAYER162
 70
               0
 62
               7
  6
CONTINUOUS
  0
LAYER
  2
LAYER163
 70
               0
 62
               7
  6
CONTINUOUS
  0
LAYER
  2
LAYER164
 70
               0
 62
               7
  6
CONTINUOUS
  0
LAYER
  2
LAYER165
 70
               0
 62
               7
  6
CONTINUOUS
  0
LAYER
  2
LAYER166
 70
               0
 62
               7
  6
CONTINUOUS
  0
LAYER
  2
LAYER167
 70
               0
 62
               7
  6
CONTINUOUS
  0
LAYER
  2
LAYER168
 70
               0
 62
               7
  6
CONTINUOUS
  0
LAYER
  2
LAYER169
 70
               0
 62
               7
  6
CONTINUOUS
  0
LAYER
  2
LAYER170
 70
               0
 62
               7
  6
CONTINUOUS
  0
LAYER
  2
LAYER171
 70
               0
 62
               7
  6
CONTINUOUS
  0
LAYER
  2
LAYER172
 70
               0
 62
               7
  6
CONTINUOUS
  0
LAYER
  2
LAYER173
 70
               0
 62
               7
  6
CONTINUOUS
  0
LAYER
  2
LAYER174
 70
               0
 62
               7
  6
CONTINUOUS
  0
LAYER
  2
LAYER175
 70
               0
 62
               7
  6
CONTINUOUS
  0
LAYER
  2
LAYER176
 70
               0
 62
               7
  6
CONTINUOUS
  0
LAYER
  2
LAYER177
 70
               0
 62
               7
  6
CONTINUOUS
  0
LAYER
  2
LAYER178
 70
               0
 62
               7
  6
CONTINUOUS
  0
LAYER
  2
LAYER179
 70
               0
 62
               7
  6
CONTINUOUS
  0
LAYER
  2
LAYER180
 70
               0
 62
               7
  6
CONTINUOUS
  0
LAYER
  2
LAYER181
 70
               0
 62
               7
  6
CONTINUOUS
  0
LAYER
  2
LAYER182
 70
               0
 62
               7
  6
CONTINUOUS
  0
LAYER
  2
LAYER183
 70
               0
 62
               7
  6
CONTINUOUS
  0
LAYER
  2
LAYER184
 70
               0
 62
               7
  6
CONTINUOUS
  0
LAYER
  2
LAYER185
 70
               0
 62
               7
  6
CONTINUOUS
  0
LAYER
  2
LAYER186
 70
               0
 62
               7
  6
CONTINUOUS
  0
LAYER
  2
LAYER187
 70
               0
 62
               7
  6
CONTINUOUS
  0
LAYER
  2
LAYER188
 70
               0
 62
               7
  6
CONTINUOUS
  0
LAYER
  2
LAYER189
 70
               0
 62
               7
  6
CONTINUOUS
  0
LAYER
  2
LAYER190
 70
               0
 62
               7
  6
CONTINUOUS
  0
LAYER
  2
LAYER191
 70
               0
 62
               7
  6
CONTINUOUS
  0
LAYER
  2
LAYER192
 70
               0
 62
               7
  6
CONTINUOUS
  0
LAYER
  2
LAYER193
 70
               0
 62
               7
  6
CONTINUOUS
  0
LAYER
  2
LAYER194
 70
               0
 62
               7
  6
CONTINUOUS
  0
LAYER
  2
LAYER195
 70
               0
 62
               7
  6
CONTINUOUS
  0
LAYER
  2
LAYER196
 70
               0
 62
               7
  6
CONTINUOUS
  0
LAYER
  2
LAYER197
 70
               0
 62
               7
  6
CONTINUOUS
  0
LAYER
  2
LAYER198
 70
               0
 62
               7
  6
CONTINUOUS
  0
LAYER
  2
LAYER199
 70
               0
 62
               7
  6
CONTINUOUS
  0
LAYER
  2
LAYER200
 70
               0
 62
               7
  6
CONTINUOUS
  0
LAYER
  2
LAYER201
 70
               0
 62
               7
  6
CONTINUOUS
  0
LAYER
  2
LAYER202
 70
               0
 62
               7
  6
CONTINUOUS
  0
LAYER
  2
LAYER203
 70
               0
 62
               7
  6
CONTINUOUS
  0
LAYER
  2
LAYER204
 70
               0
 62
               7
  6
CONTINUOUS
  0
LAYER
  2
LAYER205
 70
               0
 62
               7
  6
CONTINUOUS
  0
LAYER
  2
LAYER206
 70
               0
 62
               7
  6
CONTINUOUS
  0
LAYER
  2
LAYER207
 70
               0
 62
               7
  6
CONTINUOUS
  0
LAYER
  2
LAYER208
 70
               0
 62
               7
  6
CONTINUOUS
  0
LAYER
  2
LAYER209
 70
               0
 62
               7
  6
CONTINUOUS
  0
LAYER
  2
LAYER210
 70
               0
 62
               7
  6
CONTINUOUS
  0
LAYER
  2
LAYER211
 70
               0
 62
               7
  6
CONTINUOUS
  0
LAYER
  2
LAYER212
 70
               0
 62
               7
  6
CONTINUOUS
  0
LAYER
  2
LAYER213
 70
               0
 62
               7
  6
CONTINUOUS
  0
LAYER
  2
LAYER214
 70
               0
 62
               7
  6
CONTINUOUS
  0
LAYER
  2
LAYER215
 70
               0
 62
               7
  6
CONTINUOUS
  0
LAYER
  2
LAYER216
 70
               0
 62
               7
  6
CONTINUOUS
  0
LAYER
  2
LAYER217
 70
               0
 62
               7
  6
CONTINUOUS
  0
LAYER
  2
LAYER218
 70
               0
 62
               7
  6
CONTINUOUS
  0
LAYER
  2
LAYER219
 70
               0
 62
               7
  6
CONTINUOUS
  0
LAYER
  2
LAYER220
 70
               0
 62
               7
  6
CONTINUOUS
  0
LAYER
  2
LAYER221
 70
               0
 62
               7
  6
CONTINUOUS
  0
LAYER
  2
LAYER222
 70
               0
 62
               7
  6
CONTINUOUS
  0
LAYER
  2
LAYER223
 70
               0
 62
               7
  6
CONTINUOUS
  0
LAYER
  2
LAYER224
 70
               0
 62
               7
  6
CONTINUOUS
  0
LAYER
  2
LAYER225
 70
               0
 62
               7
  6
CONTINUOUS
  0
LAYER
  2
LAYER226
 70
               0
 62
               7
  6
CONTINUOUS
  0
LAYER
  2
LAYER227
 70
               0
 62
               7
  6
CONTINUOUS
  0
LAYER
  2
LAYER228
 70
               0
 62
               7
  6
CONTINUOUS
  0
LAYER
  2
LAYER229
 70
               0
 62
               7
  6
CONTINUOUS
  0
LAYER
  2
LAYER230
 70
               0
 62
               7
  6
CONTINUOUS
  0
LAYER
  2
LAYER231
 70
               0
 62
               7
  6
CONTINUOUS
  0
LAYER
  2
LAYER232
 70
               0
 62
               7
  6
CONTINUOUS
  0
LAYER
  2
LAYER233
 70
               0
 62
               7
  6
CONTINUOUS
  0
LAYER
  2
LAYER234
 70
               0
 62
               7
  6
CONTINUOUS
  0
LAYER
  2
LAYER235
 70
               0
 62
               7
  6
CONTINUOUS
  0
LAYER
  2
LAYER236
 70
               0
 62
               7
  6
CONTINUOUS
  0
LAYER
  2
LAYER237
 70
               0
 62
               7
  6
CONTINUOUS
  0
LAYER
  2
LAYER238
 70
               0
 62
               7
  6
CONTINUOUS
  0
LAYER
  2
LAYER239
 70
               0
 62
               7
  6
CONTINUOUS
  0
LAYER
  2
LAYER240
 70
               0
 62
               7
  6
CONTINUOUS
  0
LAYER
  2
LAYER241
 70
               0
 62
               7
  6
CONTINUOUS
  0
LAYER
  2
LAYER242
 70
               0
 62
               7
  6
CONTINUOUS
  0
LAYER
  2
LAYER243
 70
               0
 62
               7
  6
CONTINUOUS
  0
LAYER
  2
LAYER244
 70
               0
 62
               7
  6
CONTINUOUS
  0
LAYER
  2
LAYER245
 70
               0
 62
               7
  6
CONTINUOUS
  0
LAYER
  2
LAYER246
 70
               0
 62
               7
  6
CONTINUOUS
  0
LAYER
  2
LAYER247
 70
               0
 62
               7
  6
CONTINUOUS
  0
LAYER
  2
LAYER248
 70
               0
 62
               7
  6
CONTINUOUS
  0
LAYER
  2
LAYER249
 70
               0
 62
               7
  6
CONTINUOUS
  0
LAYER
  2
LAYER250
 70
               0
 62
               7
  6
CONTINUOUS
  0
LAYER
  2
LAYER251
 70
               0
 62
               7
  6
CONTINUOUS
  0
LAYER
  2
LAYER252
 70
               0
 62
               7
  6
CONTINUOUS
  0
LAYER
  2
LAYER253
 70
               0
 62
               7
  6
CONTINUOUS
  0
LAYER
  2
LAYER254
 70
               0
 62
               7
  6
CONTINUOUS
  0
LAYER
  2
LAYER255
 70
               0
 62
               7
  6
CONTINUOUS
  0
ENDTAB
  0
TABLE
  2
STYLE
 70
               1
  0
STYLE
  2
STANDARD
 70
               0
 40
0.0
 41
1.0
 50
0.0
 71
               0
 42
0.0
  3
txt
  4

  0
ENDTAB
  0
TABLE
  2
VIEW
 70
               0
  0
VIEW
  2
QQQQ
 70
               0
 40
1044.2249999999999
 10
-108.84716359995676
 20
87.658792650918684
 41
978.05104928399101
 11
0.0
 21
0.0
 31
1.0
 12
100.0
 22
100.0
 32
0.0
 42
50.0
 43
0.0
 44
0.0
 50
0.0
 71
               0
  0
ENDTAB
  0
TABLE
  2
UCS
 70
               0
  0
ENDTAB
  0
TABLE
  2
APPID
 70
               1
  0
APPID
  2
ACAD
 70
               0
  0
ENDTAB
  0
TABLE
  2
DIMSTYLE
 70
               1
  0
DIMSTYLE
  2
STANDARD
 70
               0
  3

  4

  5

  6

  7

 40
1.0
 41
0.18
 42
0.0625
 43
0.38
 44
0.18
 45
0.0
 46
0.0
 47
0.0
 48
0.0
140
0.18
141
0.09
142
0.0
143
25.399999999999999
144
1.0
145
0.0
146
1.0
147
0.09
 71
               0
 72
               0
 73
               1
 74
               1
 75
               0
 76
               0
 77
               0
 78
               0
170
               0
171
               2
172
               0
173
               0
174
               0
175
               0
176
               0
177
               0
178
               0
  0
ENDTAB
  0
ENDSEC
  0
SECTION
  2
BLOCKS
  0
ENDSEC
  0
SECTION
  2
ENTITIES
  0
ARC
  8
0
  6
CONTINUOUS
 62
               3
  5
136
 10
233.59580052493436
 20
-270.34120734908134
 30
0.0
 40
90.0
 50
302.88320949568157
 51
359.99999999986164
  0
ARC
  8
0
  6
CONTINUOUS
 62
               3
  5
137
 10
233.59580052493436
 20
-360.84120734908134
 30
0.0
 40
14.0
 50
237.11679050411198
 51
302.88320949568163
  0
LINE
  8
0
  6
CONTINUOUS
 62
               3
  5
138
 10
225.99480325560089
 20
-372.59811342642934
 30
0.0
 11
184.73224665064728
 21
-345.92131784631886
 31
0.0
  0
LINE
  8
0
  6
CONTINUOUS
 62
               3
  5
139
 10
241.19679779426798
 20
-372.59811342642934
 30
0.0
 11
282.45935439922141
 21
-345.92131784631897
 31
0.0
  0
ARC
  8
0
  6
CONTINUOUS
 62
               3
  5
13A
 10
311.97109956742599
 20
-225.09120734908132
 30
0.0
 40
14.0
 50
357.11679050406616
 51
422.88320949563501
  0
LINE
  8
0
  6
CONTINUOUS
 62
               3
  5
13B
 10
325.95337753498382
 20
-225.79541103974643
 30
0.0
 11
323.48187317352051
 21
-274.86823107478477
 31
0.0
  0
LINE
  8
0
  6
CONTINUOUS
 62
               3
  5
13C
 10
318.35238026565031
 20
-212.63009758106838
 30
0.0
 11
274.61831929923346
 21
-190.23407312614049
 31
0.0
  0
ARC
  8
0
  6
CONTINUOUS
 62
               3
  5
13D
 10
155.2205014824427
 20
-225.09120734908132
 30
0.0
 40
14.0
 50
117.11679050415775
 51
182.88320949572741
  0
LINE
  8
0
  6
CONTINUOUS
 62
               3
  5
13E
 10
148.83922078421841
 20
-212.63009758106824
 30
0.0
 11
192.57328175063543
 21
-190.23407312614049
 31
0.0
  0
LINE
  8
0
  6
CONTINUOUS
 62
               3
  5
13F
 10
141.23822351488479
 20
-225.79541103974628
 30
0.0
 11
143.70972787634821
 21
-274.86823107478466
 31
0.0
  0
ARC
  8
0
  6
CONTINUOUS
 62
               3
  5
140
 10
233.59580052493436
 20
-270.34120734908134
 30
0.0
 40
90.0
 50
179.99999999993119
 51
237.11679050411189
  0
ARC
  8
0
  6
CONTINUOUS
 62
               3
  5
141
 10
233.59580052493436
 20
-270.34120734908134
 30
0.0
 40
90.0
 50
62.883209495773364
 51
117.11679050415775
  0
CIRCLE
  8
0
  6
CONTINUOUS
 62
               3
  5
142
 10
233.59580052493436
 20
-270.34120734908134
 30
0.0
 40
71.5
  0
LINE
  8
0
  6
CONTINUOUS
 62
               3
  5
143
 10
164.09580052493433
 20
-204.81726873734374
 30
0.0
 11
164.09580052493433
 21
-101.34120734908134
 31
0.0
  0
LINE
  8
0
  6
CONTINUOUS
 62
               3
  5
144
 10
303.09580052493436
 20
-204.8172687373438
 30
0.0
 11
303.09580052493436
 21
-101.34120734908144
 31
0.0
  0
LINE
  8
0
  6
CONTINUOUS
 62
               3
  5
145
 10
164.09580052493433
 20
-101.34120734908144
 30
0.0
 11
303.09580052493436
 21
-101.34120734908144
 31
0.0
  0
LINE
  8
0
  6
CONTINUOUS
 62
               3
  5
146
 10
164.07115157162758
 20
-96.341207349081444
 30
0.0
 11
303.09580052493436
 21
-96.341207349081444
 31
0.0
  0
ARC
  8
0
  6
CONTINUOUS
 62
               3
  5
147
 10
303.09580052493436
 20
-98.841207349081444
 30
0.0
 40
2.5
 50
269.99999999989683
 51
449.99999999982737
  0
ARC
  8
0
  6
CONTINUOUS
 62
               3
  5
148
 10
164.09580052493433
 20
-98.841207349081344
 30
0.0
 40
2.5
 50
89.999999999965596
 51
269.99999999989711
  0
CIRCLE
  8
0
  6
CONTINUOUS
 62
               3
  5
149
 10
155.2205014824427
 20
-225.09120734908132
 30
0.0
 40
9.0
  0
CIRCLE
  8
0
  6
CONTINUOUS
 62
               3
  5
14A
 10
311.97109956742599
 20
-225.09120734908132
 30
0.0
 40
9.0
  0
CIRCLE
  8
0
  6
CONTINUOUS
 62
               3
  5
14B
 10
233.59580052493436
 20
-360.84120734908134
 30
0.0
 40
9.0
  0
LINE
  8
0
  6
CONTINUOUS
 62
               3
  5
14C
 10
167.09580052493507
 20
-55.34120734908123
 30
0.0
 11
167.09580052493371
 21
-69.34120734908123
 31
0.0
  0
LINE
  8
0
  6
CONTINUOUS
 62
               3
  5
14D
 10
167.09580052493507
 20
-55.34120734908123
 30
0.0
 11
300.09580052493357
 21
-55.34120734908123
 31
0.0
  0
LINE
  8
0
  6
CONTINUOUS
 62
               3
  5
14E
 10
300.09580052493357
 20
-55.34120734908123
 30
0.0
 11
300.09580052493482
 21
-69.34120734908123
 31
0.0
  0
LINE
  8
0
  6
CONTINUOUS
 62
               3
  5
14F
 10
300.09580052493425
 20
-46.341207349081344
 30
0.0
 11
167.0958005249343
 21
-46.341207349081344
 31
0.0
  0
LINE
  8
0
  6
CONTINUOUS
 62
               3
  5
150
 10
300.09580052493425
 20
-32.34120734908123
 30
0.0
 11
167.0958005249343
 21
-32.34120734908123
 31
0.0
  0
LINE
  8
0
  6
CONTINUOUS
 62
               3
  5
151
 10
300.09580052493425
 20
-46.341207349081344
 30
0.0
 11
300.09580052493425
 21
-32.34120734908123
 31
0.0
  0
LINE
  8
0
  6
CONTINUOUS
 62
               3
  5
152
 10
167.0958005249343
 20
-32.34120734908123
 30
0.0
 11
167.0958005249343
 21
-46.341207349081344
 31
0.0
  0
ARC
  8
0
  6
CONTINUOUS
 62
               3
  5
153
 10
176.09687378871692
 20
-102.03847870365435
 30
0.0
 40
13.0
 50
109.45209668776734
 51
154.65041294894053
  0
ARC
  8
0
  6
CONTINUOUS
 62
               3
  5
154
 10
289.09580085878031
 20
-101.33250200050914
 30
0.0
 40
13.0
 50
22.578306246695103
 51
70.547903312163669
  0
LINE
  8
0
  6
CONTINUOUS
 62
               3
  5
155
 10
171.76763162607139
 20
-89.780515483886944
 30
0.0
 11
179.26089366441269
 21
-87.134060655255539
 31
0.0
  0
ARC
  8
0
  6
CONTINUOUS
 62
               3
  5
156
 10
177.59580052493399
 20
-82.419459416883342
 30
0.0
 40
4.9999999999999991
 50
289.45209668769854
 51
359.99999999986176
  0
LINE
  8
0
  6
CONTINUOUS
 62
               3
  5
157
 10
293.42504302142584
 20
-89.074538780741747
 30
0.0
 11
287.93070738545521
 21
-87.134060655255539
 31
0.0
  0
ARC
  8
0
  6
CONTINUOUS
 62
               3
  5
158
 10
289.59580052493391
 20
-82.419459416883541
 30
0.0
 40
4.9999999999999991
 50
179.99999999993119
 51
250.54790331209497
  0
LINE
  8
0
  6
CONTINUOUS
 62
               3
  5
159
 10
167.09580052493371
 20
-69.34120734908123
 30
0.0
 11
300.09580052493482
 21
-69.34120734908123
 31
0.0
  0
LINE
  8
0
  6
CONTINUOUS
 62
               3
  5
15A
 10
182.59580052493399
 20
-82.419459416883342
 30
0.0
 11
182.59580052493399
 21
-69.34120734908123
 31
0.0
  0
LINE
  8
0
  6
CONTINUOUS
 62
               3
  5
15B
 10
284.59580052493391
 20
-82.419459416883541
 30
0.0
 11
284.59580052493385
 21
-69.34120734908123
 31
0.0
  0
LINE
  8
0
  6
CONTINUOUS
 62
               3
  5
15C
 10
182.59580052493436
 20
-55.34120734908123
 30
0.0
 11
182.59580052493436
 21
-46.341207349081344
 31
0.0
  0
LINE
  8
0
  6
CONTINUOUS
 62
               3
  5
15D
 10
284.59580052493436
 20
-46.341207349081344
 30
0.0
 11
284.59580052493436
 21
-55.34120734908123
 31
0.0
  0
LINE
  8
0
  6
CONTINUOUS
 62
               3
  5
15E
 10
-251.40419947506578
 20
-180.34120734907739
 30
0.0
 11
-251.40419947506547
 21
-374.84120734908186
 31
0.0
  0
LINE
  8
0
  6
CONTINUOUS
 62
               3
  5
15F
 10
-292.40419947506734
 20
-192.84120734908024
 30
0.0
 11
-269.40419947506848
 21
-192.84120734908331
 31
0.0
  0
LINE
  8
0
  6
CONTINUOUS
 62
               3
  5
160
 10
-292.4041994750711
 20
-347.8412073490839
 30
0.0
 11
-269.40419947507718
 21
-347.84120734907412
 31
0.0
  0
LINE
  8
0
  6
CONTINUOUS
 62
               3
  5
161
 10
-269.40419947506689
 20
-180.34120734908197
 30
0.0
 11
-251.40419947506578
 21
-180.34120734907739
 31
0.0
  0
LINE
  8
0
  6
CONTINUOUS
 62
               3
  5
162
 10
-269.40419947506558
 20
-374.84120734908589
 30
0.0
 11
-251.40419947506547
 21
-374.84120734908186
 31
0.0
  0
ARC
  8
0
  6
CONTINUOUS
 62
               3
  5
163
 10
-297.40419947506558
 20
-101.34120734908129
 30
0.0
 40
100.5
 50
179.99999999993119
 51
272.85171354051812
  0
ARC
  8
0
  6
CONTINUOUS
 62
               3
  5
164
 10
-297.40419947506558
 20
-101.34120734908129
 30
0.0
 40
239.5
 50
179.99999999993119
 51
271.19624096676665
  0
LINE
  8
0
  6
CONTINUOUS
 62
               3
  5
165
 10
-269.40419947506689
 20
-180.34120734908197
 30
0.0
 11
-269.40419947506558
 21
-374.84120734908589
 31
0.0
  0
LINE
  8
0
  6
CONTINUOUS
 62
               3
  5
166
 10
-237.4041994750657
 20
-189.34120734908137
 30
0.0
 11
-251.40419947506578
 21
-189.34120734908137
 31
0.0
  0
LINE
  8
0
  6
CONTINUOUS
 62
               3
  5
167
 10
-237.4041994750657
 20
-351.34120734908129
 30
0.0
 11
-251.40419947506547
 21
-351.34120734908129
 31
0.0
  0
LINE
  8
0
  6
CONTINUOUS
 62
               3
  5
168
 10
-219.4041994750657
 20
-180.34120734908171
 30
0.0
 11
-237.4041994750657
 21
-180.34120734908132
 31
0.0
  0
LINE
  8
0
  6
CONTINUOUS
 62
               3
  5
169
 10
-219.4041994750657
 20
-374.84120734908151
 30
0.0
 11
-237.4041994750657
 21
-374.84120734908117
 31
0.0
  0
LINE
  8
0
  6
CONTINUOUS
 62
               3
  5
16A
 10
-237.4041994750657
 20
-180.34120734908132
 30
0.0
 11
-237.4041994750657
 21
-374.84120734908117
 31
0.0
  0
LINE
  8
0
  6
CONTINUOUS
 62
               3
  5
16B
 10
-219.4041994750657
 20
-374.84120734908151
 30
0.0
 11
-219.4041994750657
 21
-180.34120734908171
 31
0.0
  0
LINE
  8
0
  6
CONTINUOUS
 62
               3
  5
16C
 10
-541.40419947506359
 20
-55.341207349081998
 30
0.0
 11
-404.40419947507183
 21
-55.34120734908069
 31
0.0
  0
LINE
  8
0
  6
CONTINUOUS
 62
               3
  5
16D
 10
-536.88441322983749
 20
-101.34120734908129
 30
0.0
 11
-397.90419947506541
 21
-101.34120734908129
 31
0.0
  0
LINE
  8
0
  6
CONTINUOUS
 62
               3
  5
16E
 10
-535.58820640409147
 20
-96.341207349081287
 30
0.0
 11
-398.90057561735688
 21
-96.341207349081287
 31
0.0
  0
LINE
  8
0
  6
CONTINUOUS
 62
               3
  5
16F
 10
-415.40419947506666
 20
-69.341207349087199
 30
0.0
 11
-415.40419947506598
 21
-82.4194594168832
 31
0.0
  0
LINE
  8
0
  6
CONTINUOUS
 62
               3
  5
170
 10
-517.40419947505234
 20
-69.341207349101495
 30
0.0
 11
-517.40419947506587
 21
-82.419459416883001
 31
0.0
  0
LINE
  8
0
  6
CONTINUOUS
 62
               3
  5
171
 10
-541.40419947506359
 20
-55.341207349081998
 30
0.0
 11
-541.40419947506302
 21
-69.341207349074892
 31
0.0
  0
LINE
  8
0
  6
CONTINUOUS
 62
               3
  5
172
 10
-404.40419947507183
 20
-55.34120734908069
 30
0.0
 11
-404.40419947506263
 21
-69.341207349086602
 31
0.0
  0
ARC
  8
0
  6
CONTINUOUS
 62
               3
  5
173
 10
-523.90312621128305
 20
-102.03847870365399
 30
0.0
 40
13.0
 50
109.45209668776747
 51
176.92539338565359
  0
ARC
  8
0
  6
CONTINUOUS
 62
               3
  5
174
 10
-297.40419947506587
 20
-101.34120734908139
 30
0.0
 40
100.5
 50
179.99560546483963
 51
188.58368168547548
  0
ARC
  8
0
  6
CONTINUOUS
 62
               3
  5
175
 10
-410.90419914121958
 20
-101.3325020005089
 30
0.0
 40
13.0
 50
359.99560546477079
 51
430.54790331202531
  0
LINE
  8
0
  6
CONTINUOUS
 62
               3
  5
176
 10
-528.23236837392847
 20
-89.780515483886688
 30
0.0
 11
-520.73910633558717
 21
-87.134060655255183
 31
0.0
  0
ARC
  8
0
  6
CONTINUOUS
 62
               3
  5
177
 10
-522.40419947506587
 20
-82.419459416883001
 30
0.0
 40
4.9999999999999982
 50
289.45209668769883
 51
359.99999999986176
  0
LINE
  8
0
  6
CONTINUOUS
 62
               3
  5
178
 10
-406.57495697857405
 20
-89.074538780741392
 30
0.0
 11
-412.06929261454468
 21
-87.134060655255183
 31
0.0
  0
ARC
  8
0
  6
CONTINUOUS
 62
               3
  5
179
 10
-410.40419947506598
 20
-82.4194594168832
 30
0.0
 40
4.9999999999999982
 50
179.99999999993119
 51
250.54790331209497
  0
LINE
  8
0
  6
CONTINUOUS
 62
               3
  5
17A
 10
-404.40419947506666
 20
-46.341207349081344
 30
0.0
 11
-541.4041994750653
 21
-46.341207349081344
 31
0.0
  0
LINE
  8
0
  6
CONTINUOUS
 62
               3
  5
17B
 10
-541.40419947506507
 20
-46.341207349081344
 30
0.0
 11
-541.40419947506484
 21
-32.341207349081344
 31
0.0
  0
LINE
  8
0
  6
CONTINUOUS
 62
               3
  5
17C
 10
-404.40419947506666
 20
-46.341207349081344
 30
0.0
 11
-404.4041994750666
 21
-32.34120734908123
 31
0.0
  0
LINE
  8
0
  6
CONTINUOUS
 62
               3
  5
17D
 10
-404.4041994750666
 20
-32.34120734908123
 30
0.0
 11
-541.40419947506484
 21
-32.341207349081344
 31
0.0
  0
LINE
  8
0
  6
CONTINUOUS
 62
               3
  5
17E
 10
-517.40419947506587
 20
-55.341207349081998
 30
0.0
 11
-517.40419947506587
 21
-46.341207349081344
 31
0.0
  0
LINE
  8
0
  6
CONTINUOUS
 62
               3
  5
17F
 10
-415.40419947506575
 20
-55.34120734908069
 30
0.0
 11
-415.40419947506575
 21
-46.341207349081344
 31
0.0
  0
LINE
  8
0
  6
CONTINUOUS
 62
               3
  5
180
 10
-541.40419947506302
 20
-69.341207349074892
 30
0.0
 11
-404.40419947506263
 21
-69.341207349086602
 31
0.0
  0
LINE
  8
0
  6
CONTINUOUS
 62
               3
  5
181
 10
-292.40419947506564
 20
-192.84120734908024
 30
0.0
 11
-292.40419947506564
 21
-347.8412073490839
 31
0.0
  0
LINE
  8
0
  6
CONTINUOUS
 62
               3
  5
182
 10
-486.9611367652011
 20
-290.34120734908129
 30
0.0
 11
-444.50705464790036
 21
-290.34120734908129
 31
0.0
  0
LINE
  8
0
  6
CONTINUOUS
 62
               3
  5
183
 10
-483.40419947506564
 20
-290.34120734908129
 30
0.0
 11
-483.40419947506564
 21
-320.34120734908129
 31
0.0
  0
LINE
  8
0
  6
CONTINUOUS
 62
               3
  5
184
 10
-449.40419947506564
 20
-320.34120734908129
 30
0.0
 11
-449.40419947506564
 21
-290.34120734908129
 31
0.0
  0
LINE
  8
0
  6
CONTINUOUS
 62
               3
  5
185
 10
-483.40419947506564
 20
-320.34120734908129
 30
0.0
 11
-449.40419947506564
 21
-320.34120734908129
 31
0.0
  0
LINE
  8
0
  6
CONTINUOUS
 62
               3
  5
186
 10
-471.40419947506564
 20
-290.34120734908129
 30
0.0
 11
-471.40419947506564
 21
-320.34120734908129
 31
0.0
  0
LINE
  8
0
  6
CONTINUOUS
 62
               3
  5
187
 10
-461.40419947506564
 20
-320.34120734908129
 30
0.0
 11
-461.40419947506564
 21
-290.34120734908129
 31
0.0
  0
LINE
  8
0
  6
CONTINUOUS
 62
               3
  5
188
 10
-486.9611367652011
 20
-290.34120734908129
 30
0.0
 11
-491.18258089556383
 21
-242.08988014585012
 31
0.0
  0
LINE
  8
0
  6
CONTINUOUS
 62
               3
  5
189
 10
-447.59595660126092
 20
537.1587926509186
 30
0.0
 11
-292.40419947506564
 21
537.1587926509186
 31
0.0
  0
LINE
  8
0
  6
CONTINUOUS
 62
               3
  5
18A
 10
-447.59595660126149
 20
398.15879265091883
 30
0.0
 11
-292.40419947506564
 21
398.15879265091883
 31
0.0
  0
LINE
  8
0
  6
CONTINUOUS
 62
               3
  5
18B
 10
-251.40419947506558
 20
560.15879265091871
 30
0.0
 11
-251.40419947506558
 21
375.15879265091871
 31
0.0
  0
LINE
  8
0
  6
CONTINUOUS
 62
               3
  5
18C
 10
-269.4041994750657
 20
375.15879265092315
 30
0.0
 11
-251.40419947506558
 21
375.15879265091871
 31
0.0
  0
LINE
  8
0
  6
CONTINUOUS
 62
               3
  5
18D
 10
-269.4041994750657
 20
560.15879265091871
 30
0.0
 11
-269.4041994750657
 21
375.15879265091871
 31
0.0
  0
LINE
  8
0
  6
CONTINUOUS
 62
               3
  5
18E
 10
-292.40419947506564
 20
390.15879265091871
 30
0.0
 11
-269.4041994750657
 21
390.15879265091871
 31
0.0
  0
LINE
  8
0
  6
CONTINUOUS
 62
               3
  5
18F
 10
-269.4041994750657
 20
560.15879265091655
 30
0.0
 11
-251.40419947506558
 21
560.15879265091871
 31
0.0
  0
LINE
  8
0
  6
CONTINUOUS
 62
               3
  5
190
 10
-292.40419947506564
 20
545.15879265091871
 30
0.0
 11
-269.4041994750657
 21
545.15879265091871
 31
0.0
  0
LINE
  8
0
  6
CONTINUOUS
 62
               3
  5
191
 10
-237.40419947506558
 20
375.15879265091871
 30
0.0
 11
-219.40419947506558
 21
375.15879265091871
 31
0.0
  0
LINE
  8
0
  6
CONTINUOUS
 62
               3
  5
192
 10
-237.40419947506558
 20
560.15879265091837
 30
0.0
 11
-219.40419947506558
 21
560.15879265091871
 31
0.0
  0
LINE
  8
0
  6
CONTINUOUS
 62
               3
  5
193
 10
-237.40419947506558
 20
560.15879265091871
 30
0.0
 11
-237.40419947506558
 21
375.15879265091871
 31
0.0
  0
CIRCLE
  8
0
  6
CONTINUOUS
 62
               3
  5
194
 10
-466.40419947506564
 20
467.65879265091877
 30
0.0
 40
46.0
  0
ARC
  8
0
  6
CONTINUOUS
 62
               3
  5
195
 10
-466.40419947506564
 20
467.65879265091877
 30
0.0
 40
61.999999999999993
 50
217.47199518273075
 51
262.52800481708579
  0
ARC
  8
0
  6
CONTINUOUS
 62
               3
  5
196
 10
-529.40419947506575
 20
467.65879265091877
 30
0.0
 40
12.0
 50
142.52800481713089
 51
217.47199518273098
  0
LINE
  8
0
  6
CONTINUOUS
 62
               3
  5
197
 10
-538.92800899887516
 20
474.95927565919953
 30
0.0
 11
-515.61054868141468
 21
505.37795486036907
 31
0.0
  0
LINE
  8
0
  6
CONTINUOUS
 62
               3
  5
198
 10
-538.92800899887516
 20
460.35830964263818
 30
0.0
 11
-515.61054868141468
 21
429.93963044146864
 31
0.0
  0
ARC
  8
0
  6
CONTINUOUS
 62
               3
  5
199
 10
-434.90419947506558
 20
413.09919221249925
 30
0.0
 40
12.0
 50
262.52800481708562
 51
337.47199518268434
  0
LINE
  8
0
  6
CONTINUOUS
 62
               3
  5
19A
 10
-436.46469845822855
 20
401.20108971993568
 30
0.0
 11
-474.46677755474104
 21
406.18526310600714
 31
0.0
  0
LINE
  8
0
  6
CONTINUOUS
 62
               3
  5
19B
 10
-423.81989096809326
 20
408.50157272821627
 30
0.0
 11
-409.13527218904113
 21
443.90442531545739
 31
0.0
  0
ARC
  8
0
  6
CONTINUOUS
 62
               3
  5
19C
 10
-434.90419947506558
 20
522.21839308933852
 30
0.0
 40
12.0
 50
22.528004817177461
 51
97.471995182776709
  0
LINE
  8
0
  6
CONTINUOUS
 62
               3
  5
19D
 10
-423.81989096809326
 20
526.81601257362126
 30
0.0
 11
-409.13527218904113
 21
491.41315998638032
 31
0.0
  0
LINE
  8
0
  6
CONTINUOUS
 62
               3
  5
19E
 10
-436.46469845822855
 20
534.11649558190197
 30
0.0
 11
-474.46677755474104
 21
529.13232219583051
 31
0.0
  0
ARC
  8
0
  6
CONTINUOUS
 62
               3
  5
19F
 10
-466.40419947506564
 20
467.65879265091877
 30
0.0
 40
61.999999999999993
 50
337.47199518268491
 51
382.52800481703912
  0
ARC
  8
0
  6
CONTINUOUS
 62
               3
  5
1A0
 10
-466.40419947506564
 20
467.65879265091877
 30
0.0
 40
61.999999999999993
 50
97.471995182776666
 51
142.5280048171316
  0
CIRCLE
  8
0
  6
CONTINUOUS
 62
               3
  5
1A1
 10
-529.40419947506575
 20
467.65879265091877
 30
0.0
 40
8.2666666666666657
  0
CIRCLE
  8
0
  6
CONTINUOUS
 62
               3
  5
1A2
 10
-434.90419947506558
 20
522.21839308933852
 30
0.0
 40
8.2666666666666657
  0
CIRCLE
  8
0
  6
CONTINUOUS
 62
               3
  5
1A3
 10
-434.90419947506558
 20
413.09919221249925
 30
0.0
 40
8.2666666666666657
  0
ARC
  8
0
  6
CONTINUOUS
 62
               3
  5
1A4
 10
-466.40419947506564
 20
467.65879265091877
 30
0.0
 40
69.5
 50
190.6085916708239
 51
289.39140832899244
  0
ARC
  8
0
  6
CONTINUOUS
 62
               3
  5
1A5
 10
-466.40419947506564
 20
467.65879265091877
 30
0.0
 40
72.0
 50
306.9135633967615
 51
413.08643660296246
  0
ARC
  8
0
  6
CONTINUOUS
 62
               3
  5
1A6
 10
-466.40419947506564
 20
467.65879265091877
 30
0.0
 40
72.0
 50
186.91356339680732
 51
293.08643660300913
  0
ARC
  8
0
  6
CONTINUOUS
 62
               3
  5
1A7
 10
-466.40419947506564
 20
467.65879265091877
 30
0.0
 40
72.0
 50
66.913563396853434
 51
173.08643660305484
  0
ARC
  8
0
  6
CONTINUOUS
 62
               3
  5
1A8
 10
-466.40419947506564
 20
467.65879265091877
 30
0.0
 40
69.5
 50
70.608591670870155
 51
169.39140832903828
  0
ARC
  8
0
  6
CONTINUOUS
 62
               3
  5
1A9
 10
-466.40419947506564
 20
467.65879265091877
 30
0.0
 40
69.5
 50
310.60859167077831
 51
409.39140832894577
  0
LINE
  8
0
  6
CONTINUOUS
 62
               3
  5
1AA
 10
-292.40419947506564
 20
545.15879265091871
 30
0.0
 11
-292.40419947506564
 21
390.15879265091871
 31
0.0
  0
LINE
  8
0
  6
CONTINUOUS
 62
               3
  5
1AB
 10
-237.40419947506558
 20
548.65879265091871
 30
0.0
 11
-251.4041994750657
 21
548.65879265091871
 31
0.0
  0
LINE
  8
0
  6
CONTINUOUS
 62
               3
  5
1AC
 10
-251.4041994750657
 20
386.65879265091871
 30
0.0
 11
-237.40419947506558
 21
386.65879265091871
 31
0.0
  0
LINE
  8
0
  6
CONTINUOUS
 62
               3
  5
1AD
 10
-219.40419947506558
 20
375.15879265091871
 30
0.0
 11
-219.40419947506558
 21
560.15879265091871
 31
0.0
  0
LINE
  8
0
  6
DASHDOT
 62
               4
  5
1AE
 10
233.59580052493436
 20
-20.341207349081344
 30
0.0
 11
233.59580052493436
 21
-384.84120734908134
 31
0.0
  0
LINE
  8
0
  6
DASHDOT
 62
               4
  5
1AF
 10
133.48172877471646
 20
-270.34120734908134
 30
0.0
 11
333.70987227515229
 21
-270.34120734908134
 31
0.0
  0
LINE
  8
0
  6
DASHDOT
 62
               4
  5
1B0
 10
-477.10761723675944
 20
-270.34120734908129
 30
0.0
 11
-209.4041994750657
 21
-270.34120734908129
 31
0.0
  0
ARC
  8
0
  6
DASHDOT
 62
               4
  5
1B1
 10
-297.40419947506558
 20
-101.34120734908129
 30
0.0
 40
169.0
 50
179.99999999993119
 51
268.71324725135327
  0
LINE
  8
0
  6
DASHDOT
 62
               4
  5
1B2
 10
-466.40419947506564
 20
-20.341207349081287
 30
0.0
 11
-466.40419947506564
 21
-339.24965673509303
 31
0.0
  0
LINE
  8
0
  6
DASHDOT
 62
               4
  5
1B3
 10
-551.40419947506575
 20
467.65879265091871
 30
0.0
 11
-209.40419947506558
 21
467.65879265091871
 31
0.0
  0
LINE
  8
0
  6
DASHDOT
 62
               4
  5
1B4
 10
-466.40419947506564
 20
549.65879265091883
 30
0.0
 11
-466.40419947506564
 21
385.65879265091883
 31
0.0
  0
LINE
  8
0
  6
DASHED
 62
               7
  5
1B5
 10
278.09580052493436
 20
-78.34120734908123
 30
0.0
 11
189.09580052493436
 21
-78.34120734908123
 31
0.0
  0
LINE
  8
0
  6
DASHED
 62
               7
  5
1B6
 10
-287.40419947506564
 20
-340.34120734908129
 30
0.0
 11
-287.40419947506564
 21
-200.34120734908132
 31
0.0
  0
LINE
  8
0
  6
DASHED
 62
               7
  5
1B7
 10
-510.90419947506564
 20
-78.341207349081287
 30
0.0
 11
-421.90419947506564
 21
-78.341207349081287
 31
0.0
  0
LINE
  8
0
  6
DASHED
 62
               7
  5
1B8
 10
-287.40419947506564
 20
537.65879265091871
 30
0.0
 11
-287.40419947506564
 21
397.65879265091871
 31
0.0
  0
POINT
  8
0
  6
CONTINUOUS
 62
               5
  5
1B9
 10
-466.40419947506564
 20
-270.34120734908129
 30
0.0
  0
ENDSEC
  0
EOF
